şafak türküsü gitar akor gitar tabları

'Sorun Cevaplayalım' forumunda Elfida tarafından 22 Ağustos 2011 tarihinde açılan konu


  1. şafak türküsü gitar akor gitar tabları

    İntro
    Em - D - C - Bm
    E|-0-0-2-3-2-0-3--2-0---2-0-------------0------------2-2-2-----------------|
    B|--------------------3-----3--1-0-1--1---3-1-1-0-0------------------------|
    G|-------------------------------------------------------------------------|
    D|-------------------------------------------------------------------------|
    A|-------------------------------------------------------------------------|
    E|-------------------------------------------------------------------------|
    E|-0-0-2-3-2-0-3--2-0---2-0-------------0----------------------------------|
    B|--------------------3-----3--1-0-1--1---3-1-1-0-0--0-0-0-----------------|
    G|-------------------------------------------------------------------------|
    D|-------------------------------------------------------------------------|
    A|-------------------------------------------------------------------------|
    E|-------------------------------------------------------------------------|
    Bm C Bm
    Beni burada arama , arama anne
    Bm C Bm
    Kapıda adımı , adımı sorma
    Em D
    Saçlarına yıldız düşmüş,
    C Bm
    Koparma anne ağlama.
    Em D
    Saçlarına Yıldız düşmüş,
    C Bm
    Koparma anne ağlama.
    OA