Mor ve Ötesi-cambaz gitar notası

'Nota Defteri' forumunda Sibel tarafından 19 Mart 2011 tarihinde açılan konu


  1. Mor ve ötesi-cambaz akor,tab,nota
    Mor ve ötesi-cambaz tab
    cambaz şarkısı akor,tab,nota


    [​IMG]


    E-------------------------------------------
    B--------5h7--5-5-----------8-7-7-5-5------
    G--4-5-4----------7-7-5-5-4-----------7-5-4-

    E:------------------------------------------
    B:-5h7-5-5--4-4-----4-5--------------------
    G:-----------5-5---------4---4------------
    D:--------------------------7---7-4-5-6---

    E-------------------------------------------
    B--------5h7--5-5------------8-7-7-5-5-----
    G--4-5-4----------7-7-5-5-4-----------7-5-4-

    E:------------------------------------------
    B:-5h7-5-5-4-4-----4-5---------------------
    G:----------5-5-----------------------