model değmesin ellerimiz notaları

'Soru Cevap' forumunda Gazel tarafından 25 Ekim 2011 tarihinde açılan konu


  1. model değmesin ellerimiz notaları

    do do re si do mi re si do do mi mi re si si do do mi re fa fa sol re sol sol re mi fa re sol re do re mi sol sol re mi do do do re si do mi re si do do mi mi re si si do do mi re fa fa sol re sol sol re mi fa re sol re do re mi sol sol re mi do.

    Solo1
    E----------------------------
    B--------3--1---------1-----------1----------1
    G-0---0-------3-2-3----3-2-2-3------2--- 2-----3-2-3-2-0
    D --0----------------------------------3-----------------3-2-3-

    E-------------------------------------------------------0---0-3--1--0
    B--------3--1---------1-----------1----------1------------1-------------3
    G-0---0-------3-2-3----3-2-2-3------2--- 2----3-2-
    D --0----------------------------------3------------------

    Dm A Dm A
    Ah ne zormuş bitsin demek hala severken seni
    Gm Dm Em7-5 A
    Dudaklarını öpmemek bir yabancı gibi

    Dm A Dm A
    Bilirsin ayrılık konusunda iyi değiliz ikimiz de
    Gm Dm Em7-5 A
    Bir kıvılcım yeterdi her zaman koşup geri dönmemize

    Solo2: B---232320/232320/232320/232320/(SWEETPICK)

    Gm6 Bb5b DSus2-Dm
    Değmesin ellerimiz buluşmasın bu gözler
    Gm6 Bb5b Dsus2-A7
    Yine erir gideriz unutulur yeminler

    Gm Dm F C
    Biz hiç beceremedik sevmeyi de terk etmeyi de
    Gm Dm F C
    Aşk kokan dudakların karşısında direnmeyi de

    Gm Dm F C
    Biz hiç beceremedik sevmeyi de terk etmeyi de
    Gm Dm F C
    Aşk dolu mısraların karşısında direnmeyi de

    Solo1 :



    İşte bir kez daha durup karşında

    Belki de son defa soruyorum sana

    Solo:


    Gm6 Bb5b DSus2-Dm
    Bitti mi hikayemiz? Bu ne biçim son böyle?
    Gm6 Bb5b DSus2-Dm
    Değmez miydi sevgimiz savaşıp direnmeye?

    Gm6 Bb5b DSus2-Dm
    Değmesin ellerimiz buluşmasın bu gözler
    Gm6 Bb5b DSus2-Dm
    Yine erir gideriz unutulur yeminler



    Dm
    Bitmesin hikayemiz.
     



  2. Cevap: model değmesin ellerimiz notaları

    tesekkurler
     



  3. Cevap: model değmesin ellerimiz notaları

    ama hiç bişi yazmıyor