Kolay Şarkı Tabları

'Nota Defteri' forumunda EyLüL tarafından 7 Haziran 2012 tarihinde açılan konu


  1. Kolay Çalınan Şarkı Tabları


    Kolay Şarkı Tabları Gitar

    Barış manco donence

    ( E:----------------------------------------------------------------
    ( B:---------------------------------------------------------------
    2 ( G:------------------------------------------------------------
    kez ( D:---------------------------------------------------------
    ( A:--------------------3-2---------------------------------------
    ( E:--0---0-1---1-3-------3-5--------------------------------


    ( E:--------------------/-------------------------------------
    ( B:--------------------/-------------------------------------
    2 ( G:--------------------/-------------------------------------
    kez ( D:--2-2---2-2-----0---/---3-3---3-3-----0---------
    ( A:------------3-----/------------------3---------------------
    ( E:--------------------/-------------------------------------




    E:---------------------------------------------------------------------------
    B:---------------------------------------------------------------------------
    G:---------------------------------------------------------------------------
    D:--4-4-4---2-4-5---5-7-9----------------------------5-7-9-----------------------
    A:----------------------------9---9-7-5-7---9-7-9-10-------9---7-5-7---5-3-2-----
    E:---------------------------------------------------------------------------


    ( E:--------------------/-------------------------------------
    ( B:--------------------/-------------------------------------
    2 ( G:--------------------/-------------------------------------
    kez ( D:--2-2---2-2-----0---/---3-3---3-3-----0-------------------
    ( A:------------3-----/------------------3---------------------
    ( E:--------------------/-------------------------------------


    E:---------------------------------------------------------------------------
    B:---------------------------------------------------------------------------
    G:---------------------------------------------------------------------------
    D:-4-4-4---4-2-4-5---7-9----------------------------5-7-9------------------------
    A:---------------------------9---9-7-5-7---9-7-9-10-------9---7-5-7-7-5-3-2------
    E:---------------------------------------------------------------------------


    ( E:--------------------/-------------------------------------
    ( B:--------------------/-------------------------------------
    2 ( G:--------------------/-------------------------------------
    kez ( D:--2-2---2-2-----0---/---3-3---3--3-----0-------------------
    ( A:-----------------3-----/----------------3---------------------
    ( E:--------------------/-------------------------------------


    E:---------------------------------------------------------------------------
    B:---------------------------------------------------------------------------
    G:---------------------------------------------------------------------------
    D:-4-4-4---4-2-4-5---7-9----------------------------5-7-9------------------------
    A:---------------------------9---9-7-5-7---9-7-9-10-------9---7-5-7-7-5-3-2------
    E:---------------------------------------------------------------------------


    ( E:--------------------/-------------------------------------
    ( B:--------------------/-------------------------------------
    2 ( G:--------------------/-------------------------------------
    kez ( D:--2-2---2-2-----0---/---3-3---3--3-----0-------------------
    ( A:-----------------3-----/-----------------3---------------------
    ( E:--------------------/-------------------------------------



    Güllerin İçinden

    MFÖ E:------------------------------------------------|
    B:------------------------------------------------|
    G:-2---2-2---2-0-2-0-0---0-2-0-------------|
    D:------------------------------------------------|
    A:------------------------------------------------|
    E:------------------------------------------------|



    E:------------------------------------------------|
    B:------------------------------------------------|
    G:-0-----0--0----0--0----0--2----------------|
    D:----3-------3---------3--------3---2-3------|
    A:------------------------------------------------|
    E:------------------------------------------------|


    DUMAN-BU AKŞAM

    e|----2-0---0-----0-----2-0---0-----00-|
    B|--0-----3---2-3---2-0-----3---2-3----|

    e|----2-0---0-----0--------------------|
    B|--0-----3---2-3---2-0---3-2-0-3-2-00-|

    Solo:

    e|----2-0---0-----0-----2-0---0-----00-|
    B|--0-----3---2-3---2-0-----3---2-3----|

    e|----2-0---0-----0--------------------|
    B|--0-----3---2-3---2-0---3-2-0-3-2-00-|

    e|---54545454545h7-5454545--10-9-7-----|
    B|-0-----------------------------------|

    e|---54545454545p4-2---2-0---0---------|
    B|-0-----------------------3---2-0-0---|

    p#aff a,p#aff a:link,p#aff a:visited,p#aff a:active {text-decoration:underline;color:#0000ee;} p#aff a:hover{text-decoration: underline;} Tüm müzik ve ses sistemi fırsatları için tıklayın ! Duydum ki Unutmuşsun e|----------------|------------------| B|----------------|------------------| G|--3-4-3-1-------|------------------| D|---------4-3-1--|---3-4-3-1--------| A|----------------|-----------4-2-1--| E|----------------|------------------| e|-----------------|-----------------| B|------------4-2--|-----2-----------| G|--3-4-1-3-4------|--3-4---4-3-1-3--| D|-----------------|-----------------| A|-----------------|-----------------| E|-----------------|-----------------| e|---------------------|-------------| B|---------------------|-------------| G|-3-4-3-1-------------|-------------| D|---------4-3-1-1-1/4-|---3-4-3-1---| A|---------------------|-------------| E|---------------------|-------------| e|-------------------|---------------| B|-------------------|---------------| G|-------------------|---------------| D|-1-2-1---------1/4-|-3-1-----------| A|-------4-2-4-1-----|-----4-2-1-2-1-| E|-------------------|---------------| e|-------------------|---------------------| B|-------------------|---------------------| G|-------------------|---------------------| D|-3-3/4-4-4-4-3-4-3-|-------3-4-3-1---1---| A|-------------------|-4-2-1---------4---4-| E|-------------------|---------------------| e|---------------------|---------------| B|---------------------|---------------| G|---------------------|---------------| D|-------------1-1-1/4-|-3-1-4---------| A|-2-2-2-2-1-----------|-------2-1-2-1-| E|-----------4---------|---------------| bariş manco arkadasim eşşek e ----0-0--1-1--0------1-1--0-------1-1------0--------------------------------- b-------------------3--3--------3--3-------3------1--------0--0-------1--0------- g-2--2--------------------------------------------------------------------------2---- x2 e----------------------------------------------------------------------------- b------0--1-----------------0---1--------------0--1--------------------------- g---2---------2--0-------2--------2--0-------2-------2--0---------2~--------- x2

    Duydum ki Unutmuşsun
    e|----------------|------------------|
    B|----------------|------------------|
    G|--3-4-3-1-------|------------------|
    D|---------4-3-1--|---3-4-3-1--------|
    A|----------------|-----------4-2-1--|
    E|----------------|------------------|

    e|-----------------|-----------------|
    B|------------4-2--|-----2-----------|
    G|--3-4-1-3-4------|--3-4---4-3-1-3--|
    D|-----------------|-----------------|
    A|-----------------|-----------------|
    E|-----------------|-----------------|

    e|---------------------|-------------|
    B|---------------------|-------------|
    G|-3-4-3-1-------------|-------------|
    D|---------4-3-1-1-1/4-|---3-4-3-1---|
    A|---------------------|-------------|
    E|---------------------|-------------|

    e|-------------------|---------------|
    B|-------------------|---------------|
    G|-------------------|---------------|
    D|-1-2-1---------1/4-|-3-1-----------|
    A|-------4-2-4-1-----|-----4-2-1-2-1-|
    E|-------------------|---------------|

    e|-------------------|---------------------|
    B|-------------------|---------------------|
    G|-------------------|---------------------|
    D|-3-3/4-4-4-4-3-4-3-|-------3-4-3-1---1---|
    A|-------------------|-4-2-1---------4---4-|
    E|-------------------|---------------------|

    e|---------------------|---------------|
    B|---------------------|---------------|
    G|---------------------|---------------|
    D|-------------1-1-1/4-|-3-1-4---------|
    A|-2-2-2-2-1-----------|-------2-1-2-1-|
    E|-----------4---------|---------------|

    Barışmanço Arkadaşım Eşşek

    e ----0-0--1-1--0------1-1--0-------1-1------0---------------------------------
    b-------------------3--3--------3--3-------3------1--------0--0-------1--0-------
    g-2--2--------------------------------------------------------------------------2---- x2

    e-----------------------------------------------------------------------------
    b------0--1-----------------0---1--------------0--1---------------------------
    g---2---------2--0-------2--------2--0-------2-------2--0---------2~--------- x2

    e ----0-0--1-1--0---- -1-1--0--|-------1-1----0------------------------------
    b--------------------3--3---------|-3--3------3-----1------0--0-------1---0------ x2
    g-2--2----------------------------|----------------------------------------------2--
    kaç yıl oldu saymadım...........mevsımler.. .....

    e-5-5--3-3--1-1--0-----1-1--0--|------1-1--0---------------------------------
    b----------------------3-3----------|-3-3---------3-----1-----0-0---1-0----------- x2
    g------------------------------------|--------------------------------------2------
    dun yine seni andım ....... o tatlı günlerimiz.......

    e-----------------------------------------------------------------------------
    b-----0--1-------------------0---1-----------------0--1-----------------------
    g---2--------2---0---------2-------2--0--------2-----------2--0---------2~---