Kolay Müzik Tabları

'Soru Cevap' forumunda Sitem tarafından 28 Mayıs 2012 tarihinde açılan konu


  1. Kolay Müzik Tabları nelerdir tşk ederimm

    Güllerin İçinden MFÖ
    E:------------------------------------------------|
    B:------------------------------------------------|
    G:-2---2-2---2-0-2-0-0---0-2-0-------------|
    D:------------------------------------------------|
    A:------------------------------------------------|
    E:------------------------------------------------|



    E:------------------------------------------------|
    B:------------------------------------------------|
    G:-0-----0--0----0--0----0--2----------------|
    D:----3-------3---------3--------3---2-3------|
    A:------------------------------------------------|
    E:------------------------------------------------|



    Pinhani -- Hele Bir Gel Tab (Basit Tabı)

    e-----8--7--5--5----4--5----5--4--5--7--5--4--5--0------
    B-----------------------------------------------------------------
    G-----------------------------------------------------------------
    D-----------------------------------------------------------------
    A-----------------------------------------------------------------
    E-----------------------------------------------------------------


    e-----8--7--5--5----4--5----5--5--4--5--7--5--4--5------
    B-----------------------------------------------------------------
    G-----------------------------------------------------------------
    D-----------------------------------------------------------------
    A-----------------------------------------------------------------
    E-----------------------------------------------------------------


    Tarkan / Asla Vazgeçemem
    e|---------------------------------------------------------|
    B|----1--1-1-0-0---------1-0---0-0-------------0-----------|
    G|---------------2-2-0-2-----------2-2-0-0---0---2---------|
    D|--2--------------------------------------3---------------|
    A|---------------------------------------------------------|
    E|---------------------------------------------------------|

    e|---------------------------------------------------------|
    B|----0-1----------0-1-------------------------------------|
    G|--2-------0-2--2---------0-------------------------------|
    D|--------3------------2-3---------------------------------|
    A|---------------------------------------------------------|
    E|---------------------------------------------------------|


    BİR SEVMEK BİN DEFA ÖLMEK DEMEKMİŞ

    E------------------------------------------------------------------------------------------------------------------
    B------------------------------------------------------------------------------------------------------------------
    G----------6-6-10-8-10-10-8-6-5-6-6-6-6-6-6-8-5-5-6-8-6-5-3-5---------------------------------



    E------------------------------------------------------------------------------------------------------------------
    B------------------------------------------------------------------------------------------------------------------
    G--------10-10-86-5-3-5-5-6-8-6-5-3-1-1-1-1-1-1-3-0-0-1-3-1-0-------------0------------------
    D--------------------------------------------------------------------------------------3--------------------------