Ezel Dizi Müziği gitar tab

'Nota Defteri' forumunda Sibel tarafından 8 Mayıs 2011 tarihinde açılan konu


  1. Ezel Dizi Müziği gitar notası
    Ezel Dizi Müziği akor
    Toygar ışıklı-Ezel Dizi Müziği notası,akoru,tabı


    [​IMG]
    --------------------------------------------------------7---------------
    -8--7-8-10-7-8---7-8-10-7-8---7---------7-------------8---10-8-7-8------
    -0-----------0--------------9---7-9-------7--9--11----------------------
    ------------------------------------10----------------------------------
    ------------------------------------------------------------------------
    -0-----------0----------------------------------------------------------


    ------------------------------------------------------------------------
    -8--7-8-10-7-8---7-8-10-7-8---7---------7-------------------------------
    -0-----------0--------------9---7-9-------7---9--11--12-11-9------------
    ------------------------------------10----------------------------------
    ------------------------------------------------------------------------
    -0-----------0----------------------------------------------------------