Duman Dağlar Bağlar Gitar Akorları -Tabları

'Nota Defteri' forumunda Ezlem tarafından 12 Mayıs 2011 tarihinde açılan konu


  1. Dağlar Bağlar Gitar Akorları
    Duman Dağlar Bağlar gitar tabları

    Giriş = F# F#5 - G5 - G#5 - A5

    A C# F#5 G#5 - A5 - B5
    Dağlarda bağlarda ben seni Gördüm oralarda
    A C# F#5 G#5 - A5 - B5 (x2)
    Dağlarda Bağlarda ben Seni Öptüm Buralarda


    E|-------------------------------|---------------------------|
    B|-------------------------------|---------------------------|
    G|-------------------------------|---------4------3----------|
    D|-------------4------4----------|-------4-----------4-------|
    A|----------4------------4-------|--2--5-------2--------5----|
    E|--2----5---------2--------5----|---------------------------|




    E|--------------------1----1-2-1-2-----1------------------------|
    B|-----2-3-2-3--2--------------------------3-2----0-------------|
    G|----------------------------------------------------2-1-------|
    D|---------------------------------------------------------4----|
    A|--------------------------------------------------------------|
    E|--------------------------------------------------------------|


    F#5
    Günleri ayları yılları saydık
    Biz Kavuşamadık aman

    Bm5
    Koçları kuzuları tarlayı sattık
    Başlık parası aman

    C#5 Bm5 F#5 - G#5 - A5 - B5
    Babasıda vermez kapıya dayandım vayy
    C#5 Bm5 F#m5
    Kaçıramadımda kızınada yandım vayy

    Köprü -- F#5 - G5 - G#5 - A5

    A C# F#5 A C#
    Dağlarda bağlarda ben seni Gördüm oralarda
    A C# F#5 A C# (x2)
    Dağlarda Bağlarda ben Seni Öptüm Buralarda




    E|-------------------------------|---------------------------|
    B|-------------------------------|---------------------------|
    G|-------------------------------|---------4------3----------|
    D|-------------4------4----------|-------4-----------4-------|
    A|----------4------------4-------|--2--5-------2--------5----|
    E|--2----5---------2--------5----|---------------------------|




    E|--------------------1----1-2-1-2-----1------------------------|
    B|-----2-3-2-3--2--------------------------3-2----0-------------|
    G|----------------------------------------------------2-1-------|
    D|---------------------------------------------------------4----|
    A|--------------------------------------------------------------|
    E|--------------------------------------------------------------|



    F#5
    Günleri ayları yılları saydık
    Biz Kavuşamadık aman

    Bm5
    Koçları kuzuları tarlayı sattık
    Başlık parası aman

    C#5 Bm5 F#5 - G#5 - A5 - B5
    Babasıda vermez kapıya dayandım vayy
    C#5 Bm5 F#5
    Kaçıramadımda kızınada yandım vayy

    Köprü -- F#5 - G5 - G#5 - A5

    A C# F#5 G#5 - A5 - B5
    Dağlarda bağlarda ben seni Gördüm oralarda
    A C# F#5 G#5 - A5 - B5 (x2)
    Dağlarda Bağlarda ben Seni Öptüm Buralarda

    A C# F#5 G#5 - A5 - B5
    Dağlarda bağlarda ben seni Gördüm oralarda
    A C# F#5 G#5 - A5 - B5 (x7)
    Dağlarda Bağlarda ben Seni Öptüm Buralarda


    A C# F#5 G#5 - A5 - B5
    Dağlarda bağlarda ben seni Gördüm oralarda
    A C# F# A C# c# F#
    Dağlarda Bağlarda ben Seni Öptüm Buralarda Şuralarda Oralarda vayy