Ayrılmalıyız Artık Notaları

'Nota Defteri' forumunda ZeuS tarafından 24 Haziran 2011 tarihinde açılan konu


  1. Ayrılmalıyız Artık Nota,
    Ayrılmalıyız Artık Notası,
    Ayrılmalıyız Artık Akor

    Emel Sayın Ayrılmalıyız Artık Notaları akor ve tab

    e------------------7----6------------------------------------6------6---7---9---7---6-------6-----------------
    -----
    B----6---7---9------------9---7---6---7---6---7---9--------9-------------------------9-------9----7----6------
    G-------------------------------------------------------------------------------------------------------------
    -----------
    D-------------------------------------------------------------------------------------------------------------
    -----------
    A-------------------------------------------------------------------------------------------------------------
    -----------
    E-------------------------------------------------------------------------------------------------------------
    -----------

    e--------------------------------------------------------------------------6----------------------------------
    -----------
    B----9---9---9---9----6-------------------------6---7---6---7---9------9---7---6---7---6----------------------
    G----------------------------8---6---8---6---8----------------------------------------------------8---6-------
    ------
    D-------------------------------------------------------------------------------------------------------------
    -----------
    A-------------------------------------------------------------------------------------------------------------
    -----------
    E-------------------------------------------------------------------------------------------------------------
    -----------


    e-------------------------------------------------------------------------------------------------------------
    -----------
    B-----------7---6---------------------------------------------------------------------------------------------
    ---------
    G---6---8----------8---6-----------------------6---8---9----9---8---8---6---6------6--------------------------
    D----------------------------8---9----8---9------------------------------------------9-------9----8-----------
    -----
    A-------------------------------------------------------------------------------------------------------------
    ----------
    E-------------------------------------------------------------------------------------------------------------
    ----------
    kaynak: akormerkezi.com