Akustik Gitar Parmak Egzersizleri

'Medya Bölümü' forumunda EyLüL tarafından 31 Ocak 2012 tarihinde açılan konu


  1. Akustik Gitar Parmak Alıştırmaları Dersi
    Akustik Gitar Parmak Egzersizleri Alıştırmaları

    Akustik Gitar Parmak Alıştırmaları dersi Videolu anlatım aşağıdadır

    Bu alıştırmayı sırayla 1-2, 2-3 ve 3-4 parmaklarıyla 12.perdeye kadar yapın.
    e[-1-2------------------------------]
    b[------1-2-------------------------]
    g[-----------1-2--------------------]
    d[-----------------1-2--------------]
    a[-----------------------1-2--------]
    e[-----------------------------1-2--]

    e[-1-3------------------------------] Yine 1 ve 3 numaralı parmakları kullanarak 12.perdeye kadar çıkın.
    b[------1-3-------------------------]
    g[-----------1-3--------------------]
    d[-----------------1-3--------------]
    a[-----------------------1-3--------]
    e[-----------------------------1-3--]

    e[-2-4------------------------------] Yukarıdaki gibi. Bu sefer 2. ve 4. parmaklar kullanılacak.
    b[------2-4-------------------------]
    g[-----------2-4--------------------]
    d[-----------------2-4--------------]
    a[-----------------------2-4--------]
    e[-----------------------------2-4--]

    e[-1-4------------------------------------] Yine 12. perdeye kadar çıkın.
    b[--------2-3-----------------------------]
    g[---------------1-4----------------------]
    d[---------------------2-3----------------]
    a[----------------------------1-4---------]
    e[-----------------------------------2-3--]

    e[-1-2-----------------------------------]
    b[------4-3------------------------------]
    g[-------------1-2-----------------------]
    d[--------------------4-3----------------]
    a[---------------------------1-2---------]
    e[---------------------------------4-3---]

    e[-1-2-3-4---------------------------------------------------------------] Bunu örnek olması amacıyla böyle yazdım.
    b[-------------1-2-3-4---------------------------------------------------] İlk başta 1. perdeden başlamak zor gelebilir,
    g[-------------------------1-2-3-4---------------------------------------] siz parmaklarınıza en uygun perde ile başlayın.
    d[--------------------------------------1-2-3-4--------------------------] (ÖR: 5.perde -> 5-6-7-8)
    a[---------------------------------------------------1-2-3-4-------------]
    e[---------------------------------------------------------------1-2-3-4-]

    e[-1-3-2-4---------------------------------------------------------------] Yukarıdaki 2 alıştırmanın karması.
    b[-------------1-3-2-4---------------------------------------------------]
    g[--------------------------1-3-2-4--------------------------------------]
    d[---------------------------------------1-3-2-4-------------------------]
    a[---------------------------------------------------1-3-2-4-------------]
    e[---------------------------------------------------------------1-3-2-4-]